  0
SECTION
  2
HEADER
  9
$ACADVER
  1
AC1009
  9
$INSBASE
 10
53.860516
 20
66.96272799999999
 30
0.0
  9
$EXTMIN
 10
50.26607068914976
 20
66.96272799999999
 30
0.0
  9
$EXTMAX
 10
242.0650605623731
 20
174.1236553108502
 30
0.0
  9
$LIMMIN
 10
0.0
 20
0.0
  9
$LIMMAX
 10
420.0
 20
297.0
  9
$ORTHOMODE
 70
     0
  9
$REGENMODE
 70
     1
  9
$FILLMODE
 70
     1
  9
$QTEXTMODE
 70
     0
  9
$MIRRTEXT
 70
     0
  9
$DRAGMODE
 70
     2
  9
$LTSCALE
 40
1.0
  9
$OSMODE
 70
     0
  9
$ATTMODE
 70
     1
  9
$TEXTSIZE
 40
3.5
  9
$TRACEWID
 40
0.05
  9
$TEXTSTYLE
  7
STANDARD
  9
$CLAYER
  8
0
  9
$CELTYPE
  6
BYLAYER
  9
$CECOLOR
 62
   256
  9
$DIMSCALE
 40
1.0
  9
$DIMASZ
 40
2.5
  9
$DIMEXO
 40
1.0
  9
$DIMDLI
 40
8.0
  9
$DIMRND
 40
0.0
  9
$DIMDLE
 40
0.0
  9
$DIMEXE
 40
2.0
  9
$DIMTP
 40
0.1
  9
$DIMTM
 40
0.1
  9
$DIMTXT
 40
3.5
  9
$DIMCEN
 40
2.0
  9
$DIMTSZ
 40
0.0
  9
$DIMTOL
 70
     0
  9
$DIMLIM
 70
     0
  9
$DIMTIH
 70
     0
  9
$DIMTOH
 70
     0
  9
$DIMSE1
 70
     0
  9
$DIMSE2
 70
     0
  9
$DIMTAD
 70
     1
  9
$DIMZIN
 70
     8
  9
$DIMBLK
  1

  9
$DIMASO
 70
     0
  9
$DIMSHO
 70
     0
  9
$DIMPOST
  1

  9
$DIMAPOST
  1

  9
$DIMALT
 70
     0
  9
$DIMALTD
 70
     2
  9
$DIMALTF
 40
25.39999999999999
  9
$DIMLFAC
 40
1.0
  9
$DIMTOFL
 70
     1
  9
$DIMTVP
 40
0.0
  9
$DIMTIX
 70
     0
  9
$DIMSOXD
 70
     0
  9
$DIMSAH
 70
     0
  9
$DIMBLK1
  1

  9
$DIMBLK2
  1

  9
$DIMSTYLE
  2
*UNNAMED
  9
$DIMCLRD
 70
     0
  9
$DIMCLRE
 70
     0
  9
$DIMCLRT
 70
     0
  9
$DIMTFAC
 40
1.0
  9
$DIMGAP
 40
0.09
  9
$LUNITS
 70
     2
  9
$LUPREC
 70
     3
  9
$SKETCHINC
 40
0.1
  9
$FILLETRAD
 40
20.0
  9
$AUNITS
 70
     0
  9
$AUPREC
 70
     3
  9
$MENU
  1

  9
$ELEVATION
 40
0.0
  9
$PELEVATION
 40
0.0
  9
$THICKNESS
 40
0.0
  9
$LIMCHECK
 70
     0
  9
$BLIPMODE
 70
     0
  9
$CHAMFERA
 40
0.0
  9
$CHAMFERB
 40
0.0
  9
$SKPOLY
 70
     1
  9
$TDCREATE
 40
2449058.569432407
  9
$TDUPDATE
 40
2449393.449692245
  9
$TDINDWG
 40
0.0006312500
  9
$TDUSRTIMER
 40
0.0006312500
  9
$USRTIMER
 70
     1
  9
$ANGBASE
 50
0.0
  9
$ANGDIR
 70
     0
  9
$PDMODE
 70
     3
  9
$PDSIZE
 40
2.0
  9
$PLINEWID
 40
0.0
  9
$COORDS
 70
     2
  9
$SPLFRAME
 70
     0
  9
$SPLINETYPE
 70
     6
  9
$SPLINESEGS
 70
     8
  9
$ATTDIA
 70
     1
  9
$ATTREQ
 70
     1
  9
$HANDLING
 70
     0
  9
$HANDSEED
  5
A2
  9
$SURFTAB1
 70
     6
  9
$SURFTAB2
 70
     6
  9
$SURFTYPE
 70
     6
  9
$SURFU
 70
     6
  9
$SURFV
 70
     6
  9
$UCSNAME
  2

  9
$UCSORG
 10
0.0
 20
0.0
 30
0.0
  9
$UCSXDIR
 10
1.0
 20
0.0
 30
0.0
  9
$UCSYDIR
 10
0.0
 20
1.0
 30
0.0
  9
$PUCSNAME
  2

  9
$PUCSORG
 10
0.0
 20
0.0
 30
0.0
  9
$PUCSXDIR
 10
1.0
 20
0.0
 30
0.0
  9
$PUCSYDIR
 10
0.0
 20
1.0
 30
0.0
  9
$USERI1
 70
     0
  9
$USERI2
 70
     3
  9
$USERI3
 70
    15
  9
$USERI4
 70
     0
  9
$USERI5
 70
     0
  9
$USERR1
 40
0.0
  9
$USERR2
 40
1.0
  9
$USERR3
 40
0.0
  9
$USERR4
 40
1.0
  9
$USERR5
 40
0.0
  9
$WORLDVIEW
 70
     1
  9
$SHADEDGE
 70
     3
  9
$SHADEDIF
 70
    70
  9
$TILEMODE
 70
     1
  9
$MAXACTVP
 70
    16
  9
$PINSBASE
 10
0.0
 20
0.0
 30
0.0
  9
$PLIMCHECK
 70
     0
  9
$PEXTMIN
 10
1.000000000000000E+20
 20
1.000000000000000E+20
 30
1.000000000000000E+20
  9
$PEXTMAX
 10
-1.000000000000000E+20
 20
-1.000000000000000E+20
 30
-1.000000000000000E+20
  9
$PLIMMIN
 10
0.0
 20
0.0
  9
$PLIMMAX
 10
12.0
 20
9.0
  9
$UNITMODE
 70
     0
  9
$VISRETAIN
 70
     0
  9
$PLINEGEN
 70
     0
  9
$PSLTSCALE
 70
     0
  9
$TREEDEPTH
 70
  3020
  9
$DWGCODEPAGE
  3
undefined
  0
ENDSEC
  0
SECTION
  2
TABLES
  0
TABLE
  2
VPORT
 70
     2
  0
VPORT
  2
*ACTIVE
 70
     0
 10
0.0
 20
0.0
 11
1.0
 21
1.0
 12
147.7556815
 22
140.5669890911016
 13
0.0
 23
0.0
 14
7.0
 24
7.0
 15
0.0
 25
0.0
 16
0.0
 26
0.0
 36
1.0
 17
0.0
 27
0.0
 37
0.0
 40
147.2085221822033
 41
1.275675675675675
 42
50.0
 43
0.0
 44
0.0
 50
0.0
 51
0.0
 71
     0
 72
 10000
 73
     1
 74
     0
 75
     0
 76
     0
 77
     0
 78
     0
  0
ENDTAB
  0
TABLE
  2
LTYPE
 70
     2
  0
LTYPE
  2
AUSGEZOGEN
 70
    64
  3
Solid line
 72
    65
 73
     0
 40
0.0
  0
LTYPE
  2
ITEM-STRICHPGR
 70
    64
  3
____ . ____ . ____ . ____ . ____ . ____ . ____
 72
    65
 73
     4
 40
15.0
 49
10.0
 49
-2.5
 49
0.0
 49
-2.5
  0
ENDTAB
  0
TABLE
  2
LAYER
 70
     4
  0
LAYER
  2
0
 70
     0
 62
     7
  6
AUSGEZOGEN
  0
LAYER
  2
ITEM_50
 70
    64
 62
     7
  6
AUSGEZOGEN
  0
LAYER
  2
ITEM_HILFE
 70
    64
 62
     3
  6
AUSGEZOGEN
  0
LAYER
  2
ITEM_STPG
 70
    64
 62
     4
  6
ITEM-STRICHPGR
  0
ENDTAB
  0
TABLE
  2
STYLE
 70
     1
  0
STYLE
  2
STANDARD
 70
     0
 40
0.0
 41
1.0
 50
0.0
 71
     0
 42
3.5
  3
iso
  4

  0
ENDTAB
  0
TABLE
  2
VIEW
 70
     0
  0
ENDTAB
  0
TABLE
  2
UCS
 70
     0
  0
ENDTAB
  0
TABLE
  2
APPID
 70
     1
  0
APPID
  2
ACAD
 70
    64
  0
ENDTAB
  0
TABLE
  2
DIMSTYLE
 70
     0
  0
ENDTAB
  0
ENDSEC
  0
SECTION
  2
BLOCKS
  0
ENDSEC
  0
SECTION
  2
ENTITIES
  0
LINE
  8
ITEM_STPG
 10
62.65084699999999
 20
66.96272799999999
 30
0.0
 11
62.65084699999999
 21
85.939513
 31
0.0
  0
LINE
  8
ITEM_STPG
 10
191.699374
 20
76.73887899999999
 30
0.0
 11
171.628251
 21
76.73887899999999
 31
0.0
  0
LINE
  8
ITEM_STPG
 10
233.650847
 20
118.2188949999999
 30
0.0
 11
233.650847
 21
137.497949
 31
0.0
  0
ARC
  8
ITEM_50
 10
57.65084699999999
 20
70.73887899999999
 30
0.0
 40
2.0
 50
180.0
 51
270.0
  0
ARC
  8
ITEM_50
 10
57.65084699999999
 20
82.73887899999999
 30
0.0
 40
2.0
 50
90.0
 51
180.0
  0
LINE
  8
ITEM_50
 10
57.65084699999999
 20
68.73887899999999
 30
0.0
 11
187.6508469999999
 21
68.73887899999999
 31
0.0
  0
LINE
  8
ITEM_50
 10
57.65084699999999
 20
84.73887899999999
 30
0.0
 11
187.6508469999999
 21
84.73887899999999
 31
0.0
  0
LINE
  8
ITEM_50
 10
55.65084699999999
 20
82.73887899999999
 30
0.0
 11
55.65084699999999
 21
70.73887899999999
 31
0.0
  0
LINE
  8
ITEM_50
 10
67.55832499999999
 20
76.73887899999999
 30
0.0
 11
70.15084699999999
 21
76.73887899999999
 31
0.0
  0
LINE
  8
ITEM_50
 10
56.15084699999999
 20
80.98887899999999
 30
0.0
 11
189.1508469999999
 21
80.98887899999999
 31
0.0
  0
LINE
  8
ITEM_50
 10
56.15084699999999
 20
72.48887899999999
 30
0.0
 11
189.1508469999999
 21
72.48887899999999
 31
0.0
  0
ARC
  8
ITEM_50
 10
56.15084699999999
 20
81.48887899999999
 30
0.0
 40
0.5
 50
180.0
 51
270.0
  0
ARC
  8
ITEM_50
 10
56.15084699999999
 20
71.98887899999999
 30
0.0
 40
0.5
 50
90.0
 51
180.0
  0
LINE
  8
ITEM_STPG
 10
53.860516
 20
76.73887899999999
 30
0.0
 11
73.673443
 21
76.73887899999999
 31
0.0
  0
LINE
  8
ITEM_STPG
 10
182.6508469999999
 20
67.300983
 30
0.0
 11
182.6508469999999
 21
85.98696499999999
 31
0.0
  0
LINE
  8
ITEM_STPG
 10
62.65084699999999
 20
118.0069479999999
 30
0.0
 11
62.65084699999999
 21
133.7388789999999
 31
0.0
  0
LINE
  8
ITEM_STPG
 10
182.6508469999999
 20
117.8475459999999
 30
0.0
 11
182.6508469999999
 21
133.7388789999999
 31
0.0
  0
LINE
  8
ITEM_50
 10
233.650847
 20
151.5596299999999
 30
0.0
 11
233.650847
 21
130.7388789999999
 31
0.0
  0
LINE
  8
ITEM_50
 10
237.900847
 20
130.7388789999999
 30
0.0
 11
237.900847
 21
159.2851399999999
 31
0.0
  0
LINE
  8
ITEM_50
 10
229.400847
 20
130.7388789999999
 30
0.0
 11
237.900847
 21
130.7388789999999
 31
0.0
  0
LINE
  8
ITEM_50
 10
229.400847
 20
159.2851399999999
 30
0.0
 11
229.400847
 21
130.7388789999999
 31
0.0
  0
ARC
  8
ITEM_50
 10
239.650847
 20
166.7388789999999
 30
0.0
 40
2.0
 50
0.0
 51
90.0
  0
ARC
  8
ITEM_50
 10
227.650847
 20
166.7388789999999
 30
0.0
 40
2.0
 50
90.0
 51
180.0
  0
LINE
  8
ITEM_50
 10
227.650847
 20
168.7388789999999
 30
0.0
 11
228.900847
 21
168.7388789999999
 31
0.0
  0
ARC
  8
ITEM_50
 10
238.400847
 20
168.2388789999999
 30
0.0
 40
0.5
 50
90.0
 51
180.0
  0
ARC
  8
ITEM_50
 10
228.900847
 20
168.2388789999999
 30
0.0
 40
0.5
 50
0.0
 51
90.0
  0
LINE
  8
ITEM_50
 10
236.650847
 20
158.563453
 30
0.0
 11
237.900847
 21
159.2851399999999
 31
0.0
  0
LINE
  8
ITEM_50
 10
229.400847
 20
159.2851399999999
 30
0.0
 11
230.650847
 21
158.563453
 31
0.0
  0
LINE
  8
ITEM_50
 10
237.900847
 20
159.2851399999999
 30
0.0
 11
237.900847
 21
168.2388789999999
 31
0.0
  0
LINE
  8
ITEM_50
 10
229.400847
 20
168.2388789999999
 30
0.0
 11
229.400847
 21
159.2851399999999
 31
0.0
  0
LINE
  8
ITEM_50
 10
241.650847
 20
120.7388789999999
 30
0.0
 11
225.650847
 21
120.7388789999999
 31
0.0
  0
LINE
  8
ITEM_50
 10
241.650847
 20
166.7388789999999
 30
0.0
 11
241.650847
 21
120.7388789999999
 31
0.0
  0
LINE
  8
ITEM_50
 10
238.400847
 20
168.7388789999999
 30
0.0
 11
239.650847
 21
168.7388789999999
 31
0.0
  0
LINE
  8
ITEM_50
 10
225.650847
 20
120.7388789999999
 30
0.0
 11
225.650847
 21
166.7388789999999
 31
0.0
  0
ARC
  8
ITEM_50
 10
189.1508469999999
 20
71.98887899999999
 30
0.0
 40
0.5
 50
0.0
 51
90.0
  0
ARC
  8
ITEM_50
 10
189.1508469999999
 20
81.48887899999999
 30
0.0
 40
0.5
 50
270.0
 51
0.0
  0
LINE
  8
ITEM_50
 10
175.1508469999999
 20
76.73887899999999
 30
0.0
 11
177.7433699999999
 21
76.73887899999999
 31
0.0
  0
LINE
  8
ITEM_50
 10
80.65084699999999
 20
159.2851399999999
 30
0.0
 11
164.6508469999999
 21
159.2851399999999
 31
0.0
  0
ARC
  8
ITEM_50
 10
164.6508469999999
 20
143.7388789999999
 30
0.0
 40
15.54626099999999
 50
0.0
 51
90.0
  0
LINE
  8
ITEM_50
 10
180.197109
 20
143.7388789999999
 30
0.0
 11
180.197109
 21
120.7388789999999
 31
0.0
  0
ARC
  8
ITEM_50
 10
164.6508469999999
 20
143.7388789999999
 30
0.0
 40
10.0
 50
0.0
 51
90.0
  0
ARC
  8
ITEM_50
 10
80.65084699999999
 20
143.7388789999999
 30
0.0
 40
10.0
 50
90.0
 51
180.0
  0
LINE
  8
ITEM_50
 10
80.65084699999999
 20
153.7388789999999
 30
0.0
 11
164.6508469999999
 21
153.7388789999999
 31
0.0
  0
LINE
  8
ITEM_50
 10
174.6508469999999
 20
143.7388789999999
 30
0.0
 11
174.6508469999999
 21
120.7388789999999
 31
0.0
  0
LINE
  8
ITEM_50
 10
70.65084699999999
 20
143.7388789999999
 30
0.0
 11
70.65084699999999
 21
120.7388789999999
 31
0.0
  0
LINE
  8
ITEM_50
 10
189.6508469999999
 20
70.73887899999999
 30
0.0
 11
189.6508469999999
 21
82.73887899999999
 31
0.0
  0
ARC
  8
ITEM_50
 10
187.6508469999999
 20
82.73887899999999
 30
0.0
 40
2.0
 50
0.0
 51
90.0
  0
ARC
  8
ITEM_50
 10
187.6508469999999
 20
70.73887899999999
 30
0.0
 40
2.0
 50
270.0
 51
0.0
  0
LINE
  8
ITEM_50
 10
55.65084699999999
 20
120.7388789999999
 30
0.0
 11
70.65084699999999
 21
120.7388789999999
 31
0.0
  0
LINE
  8
ITEM_50
 10
174.6508469999999
 20
120.7388789999999
 30
0.0
 11
189.6508469999999
 21
120.7388789999999
 31
0.0
  0
LINE
  8
ITEM_50
 10
189.6508469999999
 20
120.7388789999999
 30
0.0
 11
189.6508469999999
 21
142.7388789999999
 31
0.0
  0
LINE
  8
ITEM_50
 10
163.6508469999999
 20
168.7388789999999
 30
0.0
 11
81.65084699999999
 21
168.7388789999999
 31
0.0
  0
LINE
  8
ITEM_50
 10
55.65084699999999
 20
142.7388789999999
 30
0.0
 11
55.65084699999999
 21
120.7388789999999
 31
0.0
  0
ARC
  8
ITEM_50
 10
81.65084699999999
 20
142.7388789999999
 30
0.0
 40
26.0
 50
90.0
 51
180.0
  0
ARC
  8
ITEM_50
 10
163.6508469999999
 20
142.7388789999999
 30
0.0
 40
26.0
 50
0.0
 51
90.0
  0
CIRCLE
  8
ITEM_50
 10
62.65084699999999
 20
76.73887899999999
 30
0.0
 40
2.649999999999999
  0
CIRCLE
  8
ITEM_50
 10
182.6508469999999
 20
76.73887899999999
 30
0.0
 40
2.649999999999999
  0
POLYLINE
  8
ITEM_50
 66
     1
 10
0.0
 20
0.0
 30
0.0
  0
VERTEX
  8
ITEM_50
 10
180.197109
 20
80.98887899999999
 30
0.0
  0
VERTEX
  8
ITEM_50
 10
177.7433699999999
 20
76.73887899999999
 30
0.0
  0
VERTEX
  8
ITEM_50
 10
180.197109
 20
72.48887899999999
 30
0.0
  0
VERTEX
  8
ITEM_50
 10
184.6508469999999
 20
72.48887899999999
 30
0.0
  0
SEQEND
  8
ITEM_50
  0
POLYLINE
  8
ITEM_50
 66
     1
 10
0.0
 20
0.0
 30
0.0
  0
VERTEX
  8
ITEM_50
 10
184.6508469999999
 20
80.98887899999999
 30
0.0
  0
VERTEX
  8
ITEM_50
 10
180.197109
 20
80.98887899999999
 30
0.0
  0
SEQEND
  8
ITEM_50
  0
POLYLINE
  8
ITEM_50
 66
     1
 10
0.0
 20
0.0
 30
0.0
  0
VERTEX
  8
ITEM_50
 10
65.10458599999999
 20
72.48887899999999
 30
0.0
  0
VERTEX
  8
ITEM_50
 10
67.55832499999999
 20
76.73887899999999
 30
0.0
  0
VERTEX
  8
ITEM_50
 10
65.10458599999999
 20
80.98887899999999
 30
0.0
  0
VERTEX
  8
ITEM_50
 10
60.65084699999999
 20
80.98887899999999
 30
0.0
  0
SEQEND
  8
ITEM_50
  0
ARC
  8
ITEM_50
 10
73.15084699999999
 20
76.73887899999999
 30
0.0
 40
3.0
 50
90.0
 51
270.0
  0
ARC
  8
ITEM_50
 10
172.1508469999999
 20
76.73887899999999
 30
0.0
 40
3.0
 50
270.0
 51
90.0
  0
LINE
  8
ITEM_50
 10
73.15084699999999
 20
79.73887899999999
 30
0.0
 11
172.1508469999999
 21
79.73887899999999
 31
0.0
  0
LINE
  8
ITEM_50
 10
73.15084699999999
 20
73.73887899999999
 30
0.0
 11
172.1508469999999
 21
73.73887899999999
 31
0.0
  0
LINE
  8
ITEM_50
 10
230.650847
 20
158.563453
 30
0.0
 11
236.650847
 21
158.563453
 31
0.0
  0
LINE
  8
ITEM_50
 10
230.650847
 20
158.563453
 30
0.0
 11
230.650847
 21
157.356377
 31
0.0
  0
LINE
  8
ITEM_50
 10
236.650847
 20
158.563453
 30
0.0
 11
236.650847
 21
157.356377
 31
0.0
  0
ARC
  8
ITEM_50
 10
229.651041
 20
157.3043279999999
 30
0.0
 40
7.0
 50
304.847975
 51
0.42603
  0
ARC
  8
ITEM_50
 10
237.650654
 20
157.3043279999999
 30
0.0
 40
7.0
 50
179.57397
 51
235.152025
  0
LINE
  8
ITEM_STPG
 10
73.15084699999999
 20
84.73887899999999
 30
0.0
 11
73.15084699999999
 21
68.73887899999999
 31
0.0
  0
LINE
  8
ITEM_STPG
 10
172.1508469999999
 20
84.73887899999999
 30
0.0
 11
172.1508469999999
 21
68.73887899999999
 31
0.0
  0
ARC
  8
ITEM_50
 10
80.65084699999999
 20
143.7388789999999
 30
0.0
 40
15.54626099999999
 50
90.0
 51
180.0
  0
LINE
  8
ITEM_50
 10
65.10458599999999
 20
143.7388789999999
 30
0.0
 11
65.10458599999999
 21
120.7388789999999
 31
0.0
  0
ARC
  8
ITEM_50
 10
58.65084699999999
 20
72.48887899999999
 30
0.0
 40
2.0
 50
0.0
 51
180.0
  0
ARC
  8
ITEM_50
 10
58.65084699999999
 20
80.98887899999999
 30
0.0
 40
2.0
 50
180.0
 51
0.0
  0
POLYLINE
  8
ITEM_50
 66
     1
 10
0.0
 20
0.0
 30
0.0
  0
VERTEX
  8
ITEM_50
 10
59.06777699999999
 20
79.03281899999998
 30
0.0
  0
VERTEX
  8
ITEM_50
 10
57.74336999999999
 20
76.73887899999999
 30
0.0
  0
VERTEX
  8
ITEM_50
 10
59.06777699999999
 20
74.444939
 30
0.0
  0
SEQEND
  8
ITEM_50
  0
ARC
  8
ITEM_50
 10
186.6508469999999
 20
80.98887899999999
 30
0.0
 40
2.0
 50
180.0
 51
0.0
  0
ARC
  8
ITEM_50
 10
186.6508469999999
 20
72.48887899999999
 30
0.0
 40
2.0
 50
0.0
 51
180.0
  0
POLYLINE
  8
ITEM_50
 66
     1
 10
0.0
 20
0.0
 30
0.0
  0
VERTEX
  8
ITEM_50
 10
186.2339169999999
 20
74.444939
 30
0.0
  0
VERTEX
  8
ITEM_50
 10
187.5583249999999
 20
76.73887899999999
 30
0.0
  0
VERTEX
  8
ITEM_50
 10
186.2339169999999
 20
79.03281899999998
 30
0.0
  0
SEQEND
  8
ITEM_50
  0
POINT
  8
ITEM_HILFE
 10
122.6508469999999
 20
120.7388789999999
 30
0.0
  0
POINT
  8
ITEM_HILFE
 10
233.650847
 20
120.7388789999999
 30
0.0
  0
POINT
  8
ITEM_HILFE
 10
122.6508469999999
 20
76.73887899999999
 30
0.0
  0
ENDSEC
  0
EOF
